Você esta em: Home // U // Um Sonho com Tião Carreiro

Um Sonho com Tião Carreiro

RuimChatoOkBomExcelente (25 votos, média: 5,00 de 5)
Loading ... Loading ...



Como Imprimir as tablatuas em PDF

Luiz Mazza e Luciano


Colaboração de Ezio Saieves


Viola em mi
Introdução
 E|----------0----0---0---0----------0---0---0---0---0---0-------|-
 B|--------0-----------------------------------------------------|-
G#|-----2-------2---3---5---5/6----5---3---2---3---5---6---6/8---|-
 E|---0----------------------------------------------------------|-
 B|-0------------------------------------------------------------|-
- 

 E|---0---0---0----0--0---0-----------0---0------------------0---|-
 B|--------------------------------------------------------0-----|-
G#|-6---5---3---2---3---5---5/6----5----3----2----2------2-------|-
 E|----------------------------------------------------0---------|-
 B|--------------------------------------------------0-----------|-
-
E                        B7                          E
Numa estrada de chão vermelho com minha viola nos braços
                B7                          E   F#
Eu caminhava tocando a lua guiava meus passos
F#               B7                      (E B7 riff 02 A)
Na curva da Gameleira eu me vi num embaraço

Riff 02
 E|---------------------------------
 B|---------------------------------
G#|-------------------------------3-
 E|---------2-----------------2-----
 B|-0--2-4-----4-2-4---2-0--4-------
A
Passava da Meia noite não me lembro bem a hora
   B7             E        B7             E    F#
O meu corpo arrepiou, coração pulou pra fora
F#                B                       (riff 3 viola)
Um homem de capa preta pediu a minha viola

riff 03



 E|------------------------------
 B|-----7-9-7---7----------------
G#|-7-8-7-8-7-8-7-7^8^7----------
 E|-7-9-------9---7^9^7----------
 B|------------------------------
A
O sujeito foi falando sem levantar a cartola
    B             E      B7                         E
Ou vence o meu desafio ouuuu,    levo sua alma embora
                    B7                        E (riff 04 viola)
Saia fogo em seus dedos quando fazia o ponteado

(riff 04 viola)

 E|---9--------7--------11----------4--------|-
 B|------------------------------------------|-
G#|-----8^0------7^0------10^0--------3^0----|-
 E|------------------------------------------|-
 B|-0--------0--------0---------0------------|-
-
 E|---9--------2--------7----------0---------|-
 B|------------------------------------------|-
G#|-----8^0------1^0-------7^0--------0------|-
 E|------------------------------------------|-
 B|-0--------0--------0---------0------------|-
   B                    E   F#
Era difícil vencer o desafio do diabo
F#                  B                     (riff 02 viola)
Do medo eu tirei força rezei e fui ajudado
Riff 02
 E|---------------------------------
 B|---------------------------------
G#|-------------------------------3-
 E|---------2-----------------2-----
 B|-0--2-4-----4-2-4---2-0--4-------
A
Uma luz desceu do céu, o cão fugiu assustado
  B                E     B7                E (riff 05 viola )
Quando no meio da luz ouviu,   esse ponteado
 E|-----0-11----0-09------0-2------0-5-----0-4------0-7-----0-2-----0-5----0-4-|-
 B|-----0-12----0-10------0-4------0-7-----0-5------0-9-----0-4-----0-7----0-5-|-
G#|----------------------------------------------------------------------------|-
 E|----------------------------------------------------------------------------|-
 B|-0-------0---------0--------0--------0-------0--------0-------0-------0-----|-
-

 E|-----0-7----0-09------0-11--------<12>-----|-
 B|-----0-9----0-10------0-12--------<12>-----|-
G#|----------------------------------<12>-----|-
 E|----------------------------------<12>-----|-
 B|-0-------0-------0-------0--------<12>-----|-
F#                           A
Pra te ajudar violeiro por Deus fui designado
  B             E               B           E
Aquele vulto falooouuuu,  pode ficar sossegado
F#                     Quando perguntei seu nome eu fiquei lisogiado

 riff 02

 E|---------------------------------
 B|---------------------------------
G#|-------------------------------3-
 E|---------2-----------------2-----
 B|-0--2-4-----4-2-4---2-0--4-------
A      B               E        B                      E (pagode)
Respondeu sou Tião Carreiro e vou estar sempre do seu lado

(base para declame) (E)
“A terra tremeu, e o chão abriu, e o homem de capa preta naquele instante sumiu,
Sumiu também naquele instante o maior dos violeiros e tudo não passou de um sonho
que eu tive com grande mestre Tião Carreiro”
F#                               A
Quem tem um anjo da guarda esta sempre protegido
         B7          E             B7
É a providencia divina que nos livra do perigo
F#                B7                        (riff 03 viola)
Sempre salva o inocente da trapaça do inimigo

 riff 03

 E|------------------------------
 B|-----7-9-7---7----------------
G#|-7-8-7-8-7-8-7-7^8^7----------
 E|-7-9-------9---7^9^7----------
 B|------------------------------
A                   E       B7                       E    (riff)
É por isso que eu canto e conto o que aconteceu comigo

Riff final
 E|---------------------------------------------------------------------------
 B|---0------------------0------------------0-----------------0---------------
G#|---------------------------------------------------------------------------
 E|-------2^0----2^0----------5^0---5^0---------4^0---4^0---------7^0---7^0---
 B|-0---4------4------0-----7-----7-------0---5-----5------0----9-----9-------
-
 E|----------------------------------------12----
 B|---0------------------------------------12----
G#|----------------------------------------12----
 E|---------11^0------9^0-----7^0-----5^0--12----
 B|-0----12------0-10-----0-9-----0-7------12----
Be Sociable, Share!

23 Respostas para aba " Um Sonho com Tião Carreiro "

  1. Ezio Saieves disse:

    Valeu mesmo!
    Pedi e você fez!
    Tá muito bom!
    Muito agradecido!
    Parabéns, parabéns!

  2. Ezio Saieves disse:

    Aquele solinho “do diabo” no meio da moda não tem como não?
    Aquele lá que é o bão!
    Kkkkk…
    Abraço!

  3. Lucas Martins disse:

    a musica tem três solos… pelo que eu percebi o solo do meio da música e o do pagode em brasilia!

    • Ezio Saieves disse:

      Então, ela tem a introdução que tu disponibilizou pra gente. Dai vem o “solo do diabo”, depois o do Tião Carreiro (Pagode em Brasília) e finaliza com um solinho que lembra de longe o comecinho mesmo de “Navalha na Carne”.

      • Ezio Saieves disse:

        Depois de tanto encher o saco aqui aprendi a tal música na íntegra!

        Kkkkk!

        Descobri que o tal "solo do diabo" se trata da mesma introdução para a música "Tudo Certo" que, inclusive, está disponibilizada aqui no site e o outro é "Pagode em Brasília" e o finalzinho é só uma variação simples de acordes e ponteados!

        Então, fica aqui o meu muito obrigado ao Lucas por decifrar o solo de introdução!

        Abraço!

  4. Lucas Martins disse:

    Séria bom se todos colabora-se igual ao Ezio…

    Obrigado meu amigo…

    Quem tem que agradecer de verdade são todos os usuários do site….

    abraços

  5. alexandre militao disse:

    muito bom, obrigado pela tab
    eu tive um sonho uma vez que tinha uma história parecida com essa música quando eu ouvi o solo pela primeira vez fiquei arrepiado e ate hj quando toco sinto um arrepio.

  6. Rodrigo disse:

    vlw aew pessoal, musica top dimais!!!

  7. Thomaz Oliveira disse:

    muito bom vlw !

  8. Ezio Saieves disse:

    Quem tem que agradecer alguma coisa por aqui, somos todos nós, usuários do site, por ter ao alcance um material tão bom como esse e sem custo algum!
    Tá de parabéns!
    E mais uma vez, obrigado!
    Abraço!

  9. André Luís Franco disse:

    Tava meio perdido na execução deste tal de solinho do diabo…dai o violeiro Ezio nos informou que se tratava da introdução do pagode “Tudo Certo” do mestre Tião Carreiro…encontrei este ensaio dele bem lento no Youtube executado por Fernando Deghi que tirou todas as minhas dúvidas:

    http://www.youtube.com/watch?v=H6J9l-WtCHk

    Um rasqueado nas costelas de todos aqui…

  10. brunnoerafael disse:

    mto bom ! valeu mestre

  11. Lináuer Jr. disse:

    tá de parabéns . encontrei esse site ,agora consigo tocar todas musicas que eu quero. porq nao acha tablaturas nos outros. tao de parabéns msm. mto obrigado :) D+ o site.

  12. Lináuer Jr. disse:

    o qe é esse ^ na tablatura ? :S

  13. Lucas Martins disse:

    a representação do “^”, significa o ligado, onde voce toca uma nota o martela outra sem tocar novamente a mesma dando um efeito muito legal… existe outra simbolo que pode ate ser mais conhecido entre os guitarrista que é o “h” ou seja fazer um hammer-on, que é o mesmo ligado “^”! qualquer duvida acesse: http://www.amantesdaviola.com/acordes/tutorial-tablaturas

    um bom tutorial para aprender a ler as tabs do site

  14. Lináuer Jr. disse:

    Obrigado ;)

  15. heberth disse:

    Cara esse site e tudo que um violeiro precisa
    Vcs estao de parabens
    Obrigado

  16. Música xique demais! Parabéns pela postagem dela! Uma verdadeira obra de arte e verdadeiro artista o que pode decifrar ela pra nóis! Abraço do Zé do Sertão!

  17. De onde é essa dupla?Muito boa a moda!

  18. Ezio Saieves disse:

    A dupla é formada em Minas Gerais.
    No site deles tem pouco de informação sobre eles…
    http://luizmazzaeluciano.com.br/
    Abraço!

  19. edvan1270 disse:

    isso sim é muisica!!:)
     

Deixe um Comentário

© 2010-2013 - Tablaturas de Viola Caipira.
Copy Protected by Chetans WP-Copyprotect.