Você esta em: Home // U // Um Restinho de Você

Um Restinho de Você

RuimChatoOkBomExcelente (1 votos, média: 5,00 de 5)
Loading ... Loading ...



Como Imprimir as tablatuas em PDF

Joel Marques / Ivone Ribeiro

Versão: Fernando e Osmair
Viola em re#

 D#|----------------|- 
 A#|----------------|- 
  G|----------------|- 
 D#|--4-7-8-09------|- 
 A#|--6-8-9-10------|-
-
 D#|-8/12-12-10-8-6-6/10--8/10-10-8-6-4-4/8---|- 

 A#|-9/13-13-11-9-8-8/11--9/11-11-9-8-6-6/9---|-
  G|------------------------------------------|-  
 
 D#|------------------------------------------|-  
 
A#|------------------------------------------|-
-
 D#|-6/8-8-6-4-3-3/6--3/6-4-3-4-1--4-3-6-4-3-4-1-|- 
 A#|-8/9-9-8-6-4-4/8--4/8-6-4-6-2--6-4-8-6-4-6-2-|- 
  G|---------------------------------------------|- 
 D#|---------------------------------------------|- 
 A#|---------------------------------------------|-
Be Sociable, Share!

2 Respostas para aba " Um Restinho de Você "

  1. alcimar disse:

    Muito bom lucas!!!! aqui do Pará ja tem um monte de FN ouvindo e acesando o site! massa! forte abraço meu velho

  2. kbrytu disse:

    Vlw Lucas, tava procurando a tab dessa musica…. eu ouvi ela com Fernando e Osmair… os Homi canta mto d+
    Abrass

Deixe um Comentário

© 2010-2013 - Tablaturas de Viola Caipira.
Copy Protected by Chetans WP-Copyprotect.