Você esta em: Home // T // Tristeza do Jeca

Tristeza do Jeca

RuimChatoOkBomExcelente (4 votos, média: 4,50 de 5)
Loading ... Loading ...



Como Imprimir as tablatuas em PDF

Angelin de Oliveira
viola em mi
 E---------------------------------------------------------------
 B-0-0-2-2-0-------------------0---------------------------------
G#-0-0-1-1-0-1-0-0-0---1-1-1-0-0---------------------------------
 E-----------2-0-0-0-2-2-2-2-0-----------------------------------
 B-------------------4-------------------------------------------
-
 E---------------------------------------------------------------
 B---------------------------------------------------------------
G#--5-7-8-8-7-5-3-3-3-5-7-7-5-3-1-1-5-5---3-3-1-1-0--------------
 E--5-7-9-9-7-5-4-4-4-5-7-7-5-4-2-2-5-5---4-4-2-2-0--------------
 B---------------------------------------------------------------
-

 E---------------------------------------------------------------
 B---------------------------------------------------------------
G#---0-1-1-5-5-3-3-1-1-0-----------------------------------------
 E-2-0-2-2-5-5-4-4-2-2-0-----------------------------------------
 B-4-------------------------------------------------------------

 
Be Sociable, Share!

Deixe um Comentário

© 2010-2013 - Tablaturas de Viola Caipira.
Copy Protected by Chetans WP-Copyprotect.