Você esta em: Home // T // Tocando em Frente

Tocando em Frente

RuimChatoOkBomExcelente (7 votos, média: 5,00 de 5)
Loading ... Loading ...



Como Imprimir as tablatuas em PDF

Almir Sater/Renato Teixeira
Viola afinada em Cebolão Ré

    D--|-----------------------------------------|-
    A--|------------7------------8----------7----|-
    F#-|----------6-----------6-----------6------|- 2x
    D--|-----2/5--------3-2/7------5-3/5---------|-
    A--|-3-5-------------------------------------|-
-
    D--|-------5------|-------5--------|-------------7-7--5-5--3-3--2--|-
    A--|---------3----|----------3-----|------3-3^3--8-8--7-7--5-5--3--|-
    F#-|----5------5--|----5-------5---|----3--------------------------|-
    D--|--5-----------|--5-------------|--3----------------------------|-
    A--|--------------|----------------|-------------------------------|-
-
    D--|---------------------------------------------------------------|-
    A--|------3-3^3--8-8--7-7--5-5-------------------------------------|-
    F#-|----3---------------------------6------5------3----------------|-
    D--|--3----------7-7--5-5--3-3--2/7---7--5---5--3---3-2~~~---------|-
    A--|---------------------------------------------------------------|-
-
    D--|----------5-----------------------------|-
    A--|----------5-----------------------------|-
    F#-|----------5-----------------------------|-
    D--|--2--0----5-----------------------------|-
    A--|--3----7--5-----------------------------|-
                 (A)
A                            G
Ando devagar porque já tive pressa
                                   D
e levo esse sorriso, porque já chorei demais
A                                        G
Hoje me sinto mais forte, mais feliz quem sabe
                                    D              A
eu só levo a certeza de que muito pouco eu sei, eu nada sei
G              Em          G
Conhecer as manhas e as manhãs,
            Em          D
o sabor das massas e das maçãs,
G           Em           G
é preciso amor pra poder pulsar,
G         Em               G
é preciso paz pra poder sorrir,
            D
é preciso a chuva para florir.
A                                     G
Penso que cumprir a vida seja simplesmente
                                     D
compreender a marcha,e ir tocando em frente
A                                    G
como um velho boiadeiro levando a boiada,
                                     D
eu vou tocando os dias pela longa estrada eu vou,
     A
estrada eu sou
A                                  G
Todo mundo ama um dia todo mundo chora,
                                     D
Um dia a gente chega, no outro vai embora
A                              G
Cada um de nós compõe a sua história,
                                   D
e cada ser em si, carrega o dom de ser capaz,
  A
de ser feliz
A                            G
Ando devagar porque já tive pressa
                                  D
e levo esse sorriso porque já chorei demais
A                              G
Cada um de nós compõe a sua história,
                                    D            A
e cada ser em si, carrega o dom de ser capaz, de ser feliz.
Be Sociable, Share!

7 Respostas para aba " Tocando em Frente "

  1. Hugo disse:

    Olá, o site é muito bom mas ficaria melhor se vcs mostrassem como fazer as posições (acordes), muito obrigado!

  2. walter disse:

    vlw.. galera.. muito bom..

  3. TIAGO RINALDI disse:

    Muito bom mesmo !!!! é exatamente o site que eu procurava, porém concordo quanto a ilustração das posições dos acordes. Pois estou aprendendo sozinho e me ajuda muito.
    Abraço a todos !!!

  4. rafaelwesleygomes disse:

    Se eu for fazer este solo na afinação em Ré tambem dá certo?

  5. Marcelo disse:

    Simplesmente linda,graças ao sit tive o imenso prazer em aprendela !

Deixe um Comentário

© 2010-2014 - Tablaturas de Viola Caipira.
Copy Protected by Chetans WP-Copyprotect.