Você esta em: Home // P // Pagode em Brasilia (Ponteado)

Pagode em Brasilia (Ponteado)

RuimChatoOkBomExcelente (20 votos, média: 4,15 de 5)
Loading ... Loading ...



Como Imprimir as tablatuas em PDF

Tião Carreiro e Pardinho
 Viola afinada em Mi
Este ponteio e uma homenagem aos meus amigos da
orquestra de viola caipira de Votorantim  um abraço caboclos!!!!!!!
  E---0--11--0--2--0--5--0--4--0--7
  B---0--12--0--4--0--7--0--5--0--9
 G#--------------------------------
  E--------------------------------
  B--------------------------------
-
  E---0---2---0---5---4---0---7-----
  B---0---4---0---7---5---0---9-----
 G#---------------------------------
  E---------------------------------
  B---------------------------------
-
 { } HARMONIOCO
  E---0---09---0---11---0------{12}
  B---0---10---0---12---0------{12}
 G#----------------------------{12}
  E----------------------------{12}
  B----------------------------{12}
-
  E--------------------------------
  B--0-0-0-0-2-4-5-5-5-5-4-0-0-----
 G#--0-0-0-0-1-3-5-5-5-5-3-0-0-1-1-
  E----------------------------2-2-
  B--------------------------------
-
  E--------------------------------
  B--------------------------------
 G#--1-1-1-1-3-5-7-7-7-7-7-3-3-3-0-
  E--2-2-2-2-4-5-7-7-7-7-7-4-4-4-0-
  B--------------------------------
-
  E--------------------------------
  B--------------------------------
 G#---3--3--3--3--3--5--6--6--8--8-
  E---4--4--4--4--4--5--7--7--9--9-
  B--------------------------------
-
  E---10--8--8--10--8--5-----------
  B---10--9--9--10--9--5-----------
 G#--------------------------------
  E--------------------------------
  B--------------------------------
-
  E-------------------------------
  B--7-7-7-7-7--7-7-8-7-7-5-3-3---
 G#--7-7-7-7-7--7-7-9-7-7-5-4-4---
  E-------------------------------
  B-------------------------------
-
  E-------------------------------
  B-------------------------------
 G#--7-8-7-5-3-5-7-7-0-0-3-3------
  E--7-9-7-5-4-5-7-7-0-0-4-4------
  B-------------------------------
Be Sociable, Share!

17 Respostas para aba " Pagode em Brasilia (Ponteado) "

  1. Lucas Martins disse:

    Muito bom, só tem profissional aqui!

  2. carlos.daviola disse:

    aí a viola tem que falar mesmo uai, é realmente um lindo pagode, e para ele, ótima tablatura.

  3. mauricio mundim disse:

    ótimo como se estivesse descobrindo o mundo,muito bom…

  4. j.osie.l disse:

    valeuuu muitoo bommm

  5. anderson disse:

    chic no úrtimo !

  6. Laercio Andrade disse:

    a viola é um dos som melhores do mundo

  7. kiell37 disse:

    Isso é uma maravilha.
    Parabéns!!!!

  8. ismael da silva disse:

    esse cabra é bom, merece participar deste SITE ÓÓÓÓTIMO. Coisa de primeira

  9. paulo_aluno disse:

    muito bom gostei

  10. paulo_aluno disse:

    este saite foi a melhor coisa que já inventaro para quem é amante da viola se Deus deu dom para o homem invertar um intrumento ele iluminou muito o que inventou a viola não desmerecendo os outros más fala a vertade viola é viola e sempre sera a viola é igual o pele jamais sera esquecida.

  11. aguia disse:

    otimo !!!!

  12. guilherme disse:

    o que significa harmonico nessa tablatura?

  13. deco disse:

    sou amante da viola a, viola eminha amiga
     
     

  14. ola meu nome é nathaly nossa essa musica e boa d mais eu toco viola e ja to tocando essa musica ben de mais tbm né é a viola caipira minha gente haha bjs

  15. joaovictorrochadasilva disse:

    nss essa musica e mt boa nao paro de toca aqi kkkkkkkkkkkkk

     

Deixe um Comentário

© 2010-2013 - Tablaturas de Viola Caipira.
Copy Protected by Chetans WP-Copyprotect.