Você esta em: Home // M // Meu Recanto, Meu Paraiso

Meu Recanto, Meu Paraiso

RuimChatoOkBomExcelente (2 votos, média: 5,00 de 5)
Loading ... Loading ...



Como Imprimir as tablatuas em PDF

Goiano e Paranaense

Pessoal, esse solo é feito no violão em conjunto com a viola a partir da “segunda parte”,
mas tem muita gente querendo ele só na viola.
Abraços…
Viola em mi

 E|-1^3-1----1^3-----------------3----3-6-6-5-3-----------
 B|-------3------------------------4------------3---------
G#|---------------2-1---------6---------------------------
 E|-------------------3-1---6-----------------------------
 B|-------------------------------------------------------
-
                                      Segunda parte
 E|0/13-10--------------------------|--------------------6--
 B|-------11------------------------|-----------------------
G#|----------9----------------------|-4---------------2-----
 E|------------10-----8-------------|----6-5-3-------1------
 B|---------------11----11-10-8-6-4-|----------6-4-3--------
-
 E|----------------1--------------------------------------
 B|--------------3----------------------------------------
G#|------------2------------------------------------------
 E|-5-3-1----1--------------------------------------------
 B|-6-4-1--3----------------------------------------------
Be Sociable, Share!

1 Resposta para aba " Meu Recanto, Meu Paraiso "

  1. Renato disse:

    Muito bom este modão!

Deixe um Comentário

© 2010-2013 - Tablaturas de Viola Caipira.
Copy Protected by Chetans WP-Copyprotect.