Você esta em: Home // M // Menina da Aldeia

Menina da Aldeia

RuimChatoOkBomExcelente (5 votos, média: 5,00 de 5)
Loading ... Loading ...



Como Imprimir as tablatuas em PDF

Lourenço e Lourival
(adaptado para viola)
Viola afinada em mi

E |-4-5-4-3-4-9---------9--9--------9--7---|
B |-5-5-5-4-5-10--10-10-10-10-10-10-10-9---|
G#|---------------8--8--------8--8---------|
E |----------------------------------------|
B |----------------------------------------|

E |-----7-7-11-12-11-9--7-11-5-7-11-9------|
B |-9-9-9-9-12-12-12-10-9-12-7-9-12-10-----|
G#|-8-8------------------------------------|
D |----------------------------------------|
A |----------------------------------------|

E |-9--10-9--7-5-4-5-7-5-4-----------------|
B |-10-10-10-9-9-5-7-9-7-5-----------------|
G#|----------------------------------------|
D |----------------------------------------|
A |----------------------------------------|

              E                               B
Te conheci criança, quando você morava na aldeia
                                               E    B
Você era uma menina feia,  de chinelinhos nos pés
       E                                         B
Sempre despenteada,  saia rasgada nas cadeiras
                                                    E   E7
O dia inteiro abanando a peneira,  na colheita do café

              A                      E
Te encontro agora,  completamente diferente
                    B                  E   E7
Tão bonita e atraente,  um encanto de mulher
              A                      E
Queria tanto ser,   o seu primeiro namorado
                    B                  E   E7
Seu marido apaixonado,  cheio de amor e fé

            A                                      E
Menina da aldeia,  ha quem me dera se eu pudesse agora
                              B                           E  E7
Voltar de novo ao tempinho da escola,   e com você novamente estudar
            A                                      E
Menina da aldeia,  lembro-me ainda como se fosse agora
                            B                         E
Eu no caminho lhe tomava sacola,  só pra ver você chorar

(intro)
             E                          B
Quem diria que você,   iria ficar tão bonita
                                                         E    B
Não usa mais o vestido de chita,   nem a sandália de amarrar
       E                                         B
Ficou moderna agora,   lindas curvas na cintura
                                                    E   E7
Parece mesmo uma escultura,   delicada no andar

              A                      E
O tempo transformou,   aquela menina feia
                    B                  E   E7
Num corpinho de sereia,  um encanto de mulher
              A                      E
Queria tanto ser,   o seu primeiro namorado
                    B                  E   E7
Seu marido apaixonado,   cheio de amor e fé

Enviado por Humberto comtribuição pra esse site q eu adoro !!! espero q gostem

Be Sociable, Share!

1 Resposta para aba " Menina da Aldeia "

  1. dionathan disse:

    muito bom!!

     

Deixe um Comentário

© 2010-2013 - Tablaturas de Viola Caipira.
Copy Protected by Chetans WP-Copyprotect.