Você esta em: Home // F // Franguinho na Panela

Franguinho na Panela

RuimChatoOkBomExcelente (7 votos, média: 3,86 de 5)
Loading ... Loading ...



Como Imprimir as tablatuas em PDF

Lourenço e Lourival
Versão Praião e Paulinho

 E|------------------------------------------------------------------|
 B|-------------------------------5----------------------------------|
G#|-----5---5-5/6-5------5-6--5-6----6-5^6^5--5-5-5^6^5--------------|
 E|-5-7---5---------7--7--------------------------------7-5^7^5------|
 B|------------------------------------------------------------------|
-

 E|------------------------------------------------------------------|
 B|------------------------------------------------------------------|
G#|---------1-1-1^0-1-1/5--------------------------------------------|
 E|-3-2---2---------------7-5----------------------------------------|
 B|-----3------------------------------------------------------------|
Be Sociable, Share!

Deixe um Comentário

© 2010-2014 - Tablaturas de Viola Caipira.
Copy Protected by Chetans WP-Copyprotect.