Você esta em: Home // E // Empreitada Perigosa

Empreitada Perigosa

RuimChatoOkBomExcelente (9 votos, média: 4,78 de 5)
Loading ... Loading ...



Como Imprimir as tablatuas em PDF

Tião Carreiro e Pardinho

Viola em mi

 E|------------------------------------------------------------------|-
 B|------------------------------------------------------------------|-
G#|---0-1-2-2-2--2-2----—0-------------------3---3--1---1-0---0------|-
 E|-2-0-1-2-2-2--2-2-1-2---2-0----—-------2----2------0-----0--------|-
 B|-4--------------------------4-2-0--0-4----------------------------|-
-
 E|------------------------------------------------------------------|-
 B|------------------0-------0--------0------------------------------|-
G#|-----------3------------0---3-------------------------------------|-
 E|-2-----0-0-----0----2-0---------0-----2-0-------------------------|-
 B|---4-2-------0----------------0-----------------------------------|-

VERSÃO 2
 E|----------------------------------------------------------------------------------|-
 B|---------------------------------------------0---------0---------0-------0--------|-
G#|----------------------------------------------------------------------------------|-
 E|-2-4-5-6-6-6-6-6--4-6-7-6-4-------------2-7-------7-5-------5-4------4-2------2-0-|-
 B|-4-5-6-7-7-7-7-7------------7-5-4---0-4---------9---------7--------5--------4-----|-
-
 E|------------------------------------------------------------------|-
 B|-0--------0-------------0---------0-------------------------------|-
G#|------12----------------------12----------------------------------|-
 E|----------------9-11-12------------------9-11-12------------------|-
 B|----0--------0--------------0---------0---------------------------|-
Be Sociable, Share!

7 Respostas para aba " Empreitada Perigosa "

  1. Luis Mauro Martinez disse:

    Parabéns, fico muito feliz q cada dia mais, pessoas se juntão para tocar Tião Carreiro. muitas alegrias a vc.

  2. jose roberto dos reis disse:

    adorei esta tablatura eu estou comesando atocar viola agora e iso esta me ajudando muito fico muito feliz em poder contar com voces se voces tiver a tablatura do relogio quebrado me envie por favor conto muito com a ajuda de voces meu muito obrigado

  3. Alexandro cruz disse:

    poxa q legal adoro musicas do tião carreiro e pardinho,e só agora resolvi aprender toca uma viola caipira ja tocava violão mas esto cada dia mais apaixonado na viola é fantastica o som. Alex Colorado pr capital do rodeio

  4. rubenspiresviola disse:

    essa e um classico esta de parabens meu amigo esse sim e o grande tiao carreiro pai da viola jamais morrera!!!!!!!

  5. Waldir Junior disse:

    achei muito interessante no dia em q conheci esse site, agora acesso sempre e to começando a fazer o curso de viola e aprendendo as tablaturas aqui tambem. abços

Deixe um Comentário

© 2010-2014 - Tablaturas de Viola Caipira.
Copy Protected by Chetans WP-Copyprotect.