Você esta em: Home // C // Cio da terra

Cio da terra

RuimChatoOkBomExcelente (3 votos, média: 5,00 de 5)
Loading ... Loading ...



Como Imprimir as tablatuas em PDF

AUTORES : CHICO BUARQUE E MILTON NASCIMENTO.
 TOM : AM
 Viola em mi
 E---5--5--5--7--8--7--------------
 B----------------------------------
 G#----------------------------------
 E----------------------------------
 B----------------------------------
 -
 E---3--5--7--8--7--5--3--3--5-----
 B----------------------------------
 G#----------------------------------
 E----------------------------------
 B----------------------------------
-
 E---5--5--3--5--5--3--5--5--3--3--
 B----------------------------------
 G#----------------------------------
 E----------------------------------
 B----------------------------------
 -
 E---3--3--0--0--2-----------------
 B----------------------------------
 G#----------------------------------
 E----------------------------------
 B----------------------------------
Be Sociable, Share!

2 Respostas para aba " Cio da terra "

  1. Thomaz disse:

    Com certeza a musica é maravilhosa, mas joão carreiro e capataz deu um toque refinado na sua interpretação!

  2. v7rezende disse:

    Vlw pela tablatura dessa emocionante música…

    E com o Pena Branca e Xavantinho ela fica mais emocionante ainda

Deixe um Comentário

© 2010-2013 - Tablaturas de Viola Caipira.
Copy Protected by Chetans WP-Copyprotect.