Você esta em: Home // B // BOIADEIRO ERRANTE (PONTEADO)

BOIADEIRO ERRANTE (PONTEADO)

RuimChatoOkBomExcelente (6 votos, média: 4,50 de 5)
Loading ... Loading ...



Como Imprimir as tablatuas em PDF


AUTOR : TEDY VIEIRA

Esse ponteio vai em homenagem ao meu falecido Avô Sr José Evaristo Lopes ( Vô Zé )
que adorava essa musica nas vozes de Liu e Leu .

TOM : E

INTRODUÇÃO : E B A E B E (2X)

 E----------------------------------
 B----------------------------------
G#--------5--3------3--1-------1--0-
 E-----4----------2----------0------
 B--5-----------4---------2---------

2X 2X 2X 2X
 E--4--5--6--7--5--4--2--0----------
 B----------------------------------
G#--3--5--6--7--5--3--1--0----------
 E----------------------------------
 B----------------------------------

5X 2X 2X 2X
 E--12---14---11---9---7---12-------
 B----------------------------------
G#--12---13---10---8---7---12-------
 E----------------------------------
 B----------------------------------

 E--14--14--11--11--9--7--12--12----
 B----------------------------------
G#--13--13--10--10--8--7--12--12----
 E----------------------------------
 B----------------------------------

 E--12--11--14--12--11--9--7--2-----
 B----------------------------------
G#--12--10--13--12--10--8--7--1-----
 E----------------------------------
 B----------------------------------

 E-7--7--7--7--9--9--5--5--4--7--7--
 B----------------------------------
G#-7--7--7--7--8--8--5--5--3--7--7--
 E----------------------------------
 B----------------------------------

 E--9--9--5--5--5--4--7--7--5--4----
 B----------------------------------
G#--8--8--5--5--5--3--7--7--5--3----
 E----------------------------------
 B----------------------------------

 E--7--5--4--2--2--0----------------
 B----------------------------------
G#--7--5--3--1--1--0----------------
 E-------------------------------0--
 B----------------------0--2--4-----

REFRÃO :

3X 2X 3X
 E--4---5--4--3---2---7---2--------
 B---------------------------------
G#--3---5--3--2---1---7---1--------
 E---------------------------------
 B---------------------------------

 E--4--5--5--4--4--2--0----4--0----
 B---------------------------------
G#--3--5--5--3--3--1--0----3--0----
 E---------------------------------
 B---------------------------------
Be Sociable, Share!

6 Respostas para aba " BOIADEIRO ERRANTE (PONTEADO) "

  1. kilderyviola disse:

    bendito o dia em que eu achei esse Site
    nas minhas pesquisa no google!!! =)

  2. WAGNER ANDRADE disse:

    AMEM.
    COMPLEMENTANDO O QUE DISSE O NOSSO AMIGO KILDERYVIOLA… REALMENTE ESSE SITE TEM TUDO O QUE EU PRECISO.
    OBRIGADO

  3. marcio.viola.sjc disse:

    muito bom tambem me lembro meu pai que era carreiro
    e eu com nove anos de idade ja ajudava na lida de gado.

  4. Nelson disse:

    Desculpem a ignorância.
    Qual o significado de, por exemplo, 3X 2X 3X, que aparecem sobre algumas tablaturas ?
    Espero ser perdoado.

    Um abraço,
    Nelson

  5. Lucas Martins disse:

    quando aparece esses caracteres (2x) é para você aquele trecho ou sequencia, seja ele, solos ou acordes duas vezes!!!

    Abraços;

Deixe um Comentário

© 2010-2014 - Tablaturas de Viola Caipira.
Copy Protected by Chetans WP-Copyprotect.