Escalas para Viola Caipira

Contribuição desconhecida

Violeiro | Letras Cifradas e Tablaturas

Escalas maiores de viola

ESCALA DE DÓ

E |---------------------------------5-7--8------------------------|
B |------------------------5-6--8---------------------------------|
G#|-----------------3-4-6-----------------------------------------|
E |-----------1-3-5-----------------------------------------------|
B |---1-3-5-------------------------------------------------------|

ESCALA DE RÉ
E |---------------------------------7--9--10----------------------|
B |------------------------7--8--10-------------------------------|
G#|-----------------5-6-8-----------------------------------------|
E |---------3-5-7-------------------------------------------------|
B |---3-5-7-------------------------------------------------------|

ESCALA DE MI
E |---------------------------------9--11-12----------------------|
B |------------------------9--10-12-------------------------------|
G#|-----------------7-8-10----------------------------------------|
E |---------5-7-9-------------------------------------------------|
B |---5-7-9-------------------------------------------------------|

ESCALA DE FÁ
E |---------------------------------5--6--8-----------------------|
B |------------------------5--6--8--------------------------------|
G#|-----------------2-4-6-----------------------------------------|
E |---------1-3-5-------------------------------------------------|
B |---1-3-5-------------------------------------------------------|

ESCALA DE SOL
E |---------------------------------------7--8-10-----------------|
B |---------------------------7--8--10----------------------------|
G#|-------------------4-6--8--------------------------------------|
E |-------------3-5-7---------------------------------------------|
B |-------3-5-6---------------------------------------------------|

ESCALA DE LÁ
E |------------------------------------9--10-12-------------------|
B |---------------------------9--10-12----------------------------|
G#|-------------------6-8-10--------------------------------------|
E |-------------5-7-9---------------------------------------------|
B |-----5-7-9-----------------------------------------------------|

ESCALA DE SI
E |---------------------------------4--6--7-----------------------|
B |------------------------4--5--7--------------------------------|
G#|---------------2---3-5-----------------------------------------|
E |---------0-2-4-------------------------------------------------|
B |---0-2-4-------------------------------------------------------|

 

Be Sociable, Share!

2 Respostas para aba " Escalas para Viola Caipira "

  1. gilkey disse:

    se tiver alguma nota errada, fiquem livres para corrigir.

  2. sunaviola disse:

    muito bom…

Deixe um Comentário

© 2010-2013 - Tablaturas de Viola Caipira.
Copy Protected by Chetans WP-Copyprotect.