Escalas Duetadas

Cordas 3 e 4

E-------------------------------------------------|-
B-------------------------------------------------|-
G#-0-----1-----3-----5-----7-----8-----10-----12--|-
E--0-----2-----4-----5-----7-----9-----11-----12--|-
B-------------------------------------------------|-

Cordas 2 e 3

E-------------------------------------------------|-
B--0-----2-----4-----5-----7-----9-----10-----12--|-
G#-0-----1-----3-----5-----7-----8-----10-----12--|-
E-------------------------------------------------|-
B-------------------------------------------------|-

Cordas 1 e 3

E--0-----2-----4-----5-----7-----9-----11-----12--|-
B-------------------------------------------------|-
G#-0-----1-----3-----5-----7-----8-----10-----12--|-
E-------------------------------------------------|-
B-------------------------------------------------|-

cordas 1 e 2

E--0-----2-----4-----5-----7-----09-----11----12--|-
B--2-----4-----5-----7-----9-----10-----12----14--|-
G#------------------------------------------------|-
E-------------------------------------------------|-
B-------------------------------------------------|-
Be Sociable, Share!

Deixe um Comentário

© 2010-2014 - Tablaturas de Viola Caipira.
Copy Protected by Chetans WP-Copyprotect.