Você esta em: Home // A // As águas do São Francisco

As águas do São Francisco

RuimChatoOkBomExcelente (3 votos, média: 4,67 de 5)
Loading ... Loading ...



Como Imprimir as tablatuas em PDF

Gino/Geno/otávio Pimentel
E---------------0-2--------------0-4-2-----------------------------------------|-
B---------2---2-----5-4-2------0-------5-4--2-0---0-2-0---0-2-0----------------|-
G#--0-1-3---1-------------3--0------------------1-------1-------1-0------------|-
E-------------------------------------------------------------------2-0--------|-
B-----------------------------------------------------------------------4-2-0--|-
-

E---------------------0-2---------4-5-6-7-7-7-6-5-4---4-5-4--------------------|-
B--5-4-3-------2----2-----5-4-2---------------------7-------7-5-4-5-4-2-0-2-0--|-
G#-------0-1-3----1-------------3---------------------------------------------1|-
E------------------------------------------------------------------------------|-
B------------------------------------------------------------------------------|-
-

E----------------|-
B----------------|-
G#-0-------------|-
E--0---------0---|-
B-----0-2-4------|-
Be Sociable, Share!

Deixe um Comentário

© 2010-2013 - Tablaturas de Viola Caipira.
Copy Protected by Chetans WP-Copyprotect.